rodiklisPortaleCalendarDUKIeškotiRegistruotisPrisijungti

Share | 
 

 Burrial Applicant (intro)

Rodyti ankstesnę temą Rodyti sekančią temą Go down 
AutoriusPranešimas
Kajitoku
~Wakagashira~


Female
Capricorn Cat
Age : 28
Miestas : [UK]
Pranešimų skaičius : 1068
Reputacija : 16

.::+Trumpai apie save+::.
Pareigos: Nosebleeding FAN
Išskirtinis Bruožas: ''[Motto Sugoku Impacto]''
Super Galia: Amnesia and Perverted mind transfer niahahahahaha ! $.$

RašytiTemos pavadinimas: Burrial Applicant (intro)   Sausis 8th 2008, 19:13

Aoi gitara intro:

e|----------|-----------|--------|-------|
B|----------|----------|---------|-------|
G|-7-8-5--|-7-8-5--|-7-8-5--|-7-8-|
D|--0-0-0-|--0-0-0-|--0-0-0-|--0---|
A|----------|----------|----------|------|
E|----------|----------|----------|------|

e|-----------------|----------|----------------|----------------|
B|-----------------|---------|-----------------|---------------|
G|-----------------|---------|-----------------|---------------|
D|-------3--------|---------|-------3--------|-------3-------|
A|-0-1-0-1-0-1-|-0-1-0-|-0-1-0-1-0-1-|-0-1-0-1-0---|
E|-0-1-0---0-1-|-0-1-0--|-0-1-0---0-1---|-0-1-0---0---|

e|------------------|----------|
B|------------------|----------|
G|------------------|---------|
D|-------3--------|----------|
A|-0-1-0-1-0-1-|-0-1-0---|
E|-0-1-0---0-1-|-0-1-0----|2X
Atgal į viršų Go down
Peržiūrėti vartotojo aprašymą http://mikarainz.blogspot.com/
geisha_killen
~Shatei~


Female
Pisces Rooster
Age : 23
Pranešimų skaičius : 68
Reputacija : 0

.::+Trumpai apie save+::.
Pareigos: Uruha's bed warmer. :3
Išskirtinis Bruožas: I'm the orgasm of the world. xDD
Super Galia: Suck blood to live. xDDD

RašytiTemos pavadinimas: Burrial Applicant (intro)   Spalis 31st 2008, 13:44

O va uz sita tai dekui! :bow: :pu:
Atgal į viršų Go down
Peržiūrėti vartotojo aprašymą http://www.myspace.com/geisha_killen
enChi
~Shatei~


Female
Cancer Dog
Age : 22
Miestas : Vilnius.
Pranešimų skaičius : 82
Reputacija : 0

.::+Trumpai apie save+::.
Pareigos: Gazerock listener!x3
Išskirtinis Bruožas: 'Ką sakei?'
Super Galia: Kad negalinga aš.XD

RašytiTemos pavadinimas: Re: Burrial Applicant (intro)   Sausis 5th 2009, 11:44

Ačiū, reiks kada pabandyti :bow:
Atgal į viršų Go down
Peržiūrėti vartotojo aprašymą http://www.screw.omgforum.net
Sponsored content




RašytiTemos pavadinimas: Re: Burrial Applicant (intro)   Today at 00:50

Atgal į viršų Go down
 
Burrial Applicant (intro)
Rodyti ankstesnę temą Rodyti sekančią temą Atgal į viršų 
Puslapis 11

Permissions in this forum:Jūs negalite atsakinėti į pranešimus šiame forume
 :: the GazettE :: Akordai-
Pereiti į: