rodiklisPortaleCalendarDUKIeškotiRegistruotisPrisijungti

Share | 
 

 Reila tabs

Rodyti ankstesnę temą Rodyti sekančią temą Go down 
AutoriusPranešimas
Reita-sama
~Shatei~


Male
Leo Rat
Age : 20
Miestas : Vilnius
Pranešimų skaičius : 64
Reputacija : -2

RašytiTemos pavadinimas: Reila tabs   Birželis 29th 2010, 20:07

E||------|--2-2-2--2--2-2--2-2--2--2--|----------------------------|
B||------|--0-0-0--0--0-0--0-0--0--0--|--5-5-5--5--5-5--5-5--5--5--|
G||------|--0-0-0--0--0-0--0-0--0--0--|--5-5-5--5--5-5--5-5--5--5--|
D||------|--2-2-2--2--2-2--2-2--2--2--|--2-2-2--2--2-2--2-2--2--2--|
A||------|----------------------------|--3-3-3--3--3-3--3-3--3--3--|
E||------|----------------------------|----------------------------|



----------------------------|--0-0-0--0--0-0--0-0--0--0--|
--5-5-5--5--5-5--5-5--5--5--|--0-0-0--0--0-0--0-0--0--0--|
--7-7-7--7--7-7--7-7--7--7--|--0-0-0--0--0-0--0-0--0--0--|
--0-0-0--0--0-0--0-0--0--0--|--2-2-2--2--2-2--2-2--2--2--|
--x-x-x--x--x-x--x-x--x--x--|----------------------------|
--7-7-7--7--7-7--7-7--7--7--|----------------------------|



--0-0-0--0--0-0--0-0--0--0--|----------------------------|
--3-3-3--3--3-3--3-3--3--3--|--5-5-5--5--5-5--5-5--5--5--|
--2-2-2--2--2-2--2-2--2--2--|--5-5-5--5--5-5--5-5--5--5--|
--0-0-0--0--0-0--0-0--0--0--|--2-2-2--2--2-2--2-2--2--2--|
----------------------------|--3-3-3--3--3-3--3-3--3--3--|
----------------------------|----------------------------|



----------------------------|--0-0-0--0--0-0--0-0--0--0--|
--5-5-5--5--5-5--5-5--5--5--|--0-0-0--0--0-0--0-0--0--0--|
--7-7-7--7--7-7--7-7--7--7--|--0-0-0--0--0-0--0-0--0--0--|
--0-0-0--0--0-0--0-0--0--0--|--2-2-2--2--2-2--2-2--2--2--|
--x-x-x--x--x-x--x-x--x--x--|----------------------------|
--7-7-7--7--7-7--7-7--7--7--|----------------------------|



--0-0-0--0--0-0--0-0--0--0--|----------------------------|
--3-3-3--3--3-3--3-3--3--3--|--5-5-5--5--5-5--5-5--5--5--|
--2-2-2--2--2-2--2-2--2--2--|--5-5-5--5--5-5--5-5--5--5--|
--0-0-0--0--0-0--0-0--0--0--|--2-2-2--2--2-2--2-2--2--2--|
----------------------------|--3-3-3--3--3-3--3-3--3--3--|
----------------------------|----------------------------|



----------------------------|--0-0-0--0--0-0--0-0--0--0--|
--5-5-5--5--5-5--5-5--5--5--|--0-0-0--0--0-0--0-0--0--0--|
--7-7-7--7--7-7--7-7--7--7--|--0-0-0--0--0-0--0-0--0--0--|
--0-0-0--0--0-0--0-0--0--0--|--2-2-2--2--2-2--2-2--2--2--|
--x-x-x--x--x-x--x-x--x--x--|----------------------------|
--7-7-7--7--7-7--7-7--7--7--|----------------------------|



--0-0-0--0--0-0--0-0--0--0--|----------------------------|
--3-3-3--3--3-3--3-3--3--3--|--5-5-5--5--5-5--5-5--5--5--|
--2-2-2--2--2-2--2-2--2--2--|--5-5-5--5--5-5--5-5--5--5--|
--0-0-0--0--0-0--0-0--0--0--|--2-2-2--2--2-2--2-2--2--2--|
----------------------------|--3-3-3--3--3-3--3-3--3--3--|
----------------------------|----------------------------|



----------------------------|--0-0-0--0--0-0--0-0--0--0--|
--5-5-5--5--5-5--5-5--5--5--|--0-0-0--0--0-0--0-0--0--0--|
--7-7-7--7--7-7--7-7--7--7--|--0-0-0--0--0-0--0-0--0--0--|
--0-0-0--0--0-0--0-0--0--0--|--2-2-2--2--2-2--2-2--2--2--|
--x-x-x--x--x-x--x-x--x--x--|----------------------------|
--7-7-7--7--7-7--7-7--7--7--|----------------------------|



--2-2-2--2--2-2--2-2--2--2--|--------------------------|------------------|
--0-0-0--0--0-0--0-0--0--0--|--------0--------0--------|------------------|
--0-0-0--0--0-0--0-0--0--0--|-----0-----0--2-----0-----|------------------|
--2-2-2--2--2-2--2-2--2--2--|--------------------------|------------------|
---------------------------- |--3--------------------3--|------------------|
---------------------------- |--------------------------|------------------|



-------------------------|------------------|------------------------|
-------------0-----------|------------------|--------0--------0------|
-------2--------2--------|------------------|-----0-----0--2---------|
----2-----2--------2-----|------------------|------------------------|
----------------------2--|------------------|--3---------------------|
-------------------------|------------------|------------------------|



-------------------------|--------------------------|------------------|
-----------------0-------|--------------0-----------|------------------|
--------2-----2-----2----|-----------0-----0--------|------------------|
-----0-----0-------------|--------2-----------2-----|------------------|
--2----------------------|-----2--------------------|------------------|
-------------------------|--0--------------------0--|------------------|



--------------------------|------------------|-------------------------|
--------0--------0--------|------------------|-------------0-----------|
-----0-----0--2-----0-----|------------------|-------2--------2--------|
--------------------------|------------------|----2-----2--------2-----|
--3--------------------3--|------------------|----------------------2--|
--------------------------|------------------|-------------------------|



------------------|------------------------|-------------------------|
------------------|--------0--------0------|-----------------0-------|
------------------|-----0-----0--2---------|--------2-----2-----2----|
------------------|------------------------|-----0-----0-------------|
------------------|--3---------------------|--2----------------------|
------------------|------------------------|-------------------------|



--------------------------|-------------------------|--------------------------|
--------------0-----------|----------3-----3--------|--------0--------0--------|
-----------0-----0--------|-------0-----2-----0-----|-----0-----0--2-----0-----|
--------2-----------2-----|----2-----------------2--|--------------------------|
-----2--------------------|-------------------------|--3--------------------3--|
--0--------------------0--|-------------------------|--------------------------|



------------------|-------------------------|------------------|
------------------|-------------0-----------|------------------|
------------------|-------2--------2--------|------------------|
------------------|----2-----2--------2-----|------------------|
------------------|----------------------2--|------------------|
------------------|-------------------------|------------------|



------------------------|-------------------------|--------------------------|
--------0--------0------|-----------------0-------|--------------0-----------|
-----0-----0--2---------|--------2-----2-----2----|-----------0-----0--------|
------------------------|-----0-----0-------------|--------2-----------2-----|
--3---------------------|--2----------------------|-----2--------------------|
------------------------|-------------------------|--0--------------------0--|



-------------------------|--------------------------|------------------|
----------3-----3--------|--------0--------0--------|------------------|
-------0-----2-----0-----|-----0-----0--2-----0-----|------------------|
----2-----------------2--|--------------------------|------------------|
-------------------------|--3--------------------3--|------------------|
-------------------------|--------------------------|------------------|



-------------------------|------------------|------------------------|
-------------0-----------|------------------|--------0--------0------|
-------2--------2--------|------------------|-----0-----0--2---------|
----2-----2--------2-----|------------------|------------------------|
----------------------2--|------------------|--3---------------------|
-------------------------|------------------|------------------------|



-------------------------|--------------------------|-------------0-----------|
-----------------0-------|--------------0-----------|----------3-----3--------|
--------2-----2-----2----|-----------0-----0--------|-------0-----------0-----|
-----0-----0-------------|--------2-----------2-----|----2-----------------2--|
--2----------------------|-----2--------------------|-------------------------|
-------------------------|--0--------------------0--|-------------------------|


---------------------------|---------------------------|
--3--3--3--3-3--3-3--3--3--|--2--2--2--2-2--2-2--2--2--|
--4--4--4--4-4--4-4--4--4--|--2--2--2--2-2--2-2--2--2--|
--5--5--5--5-5--5-5--5--5--|--4--4--4--4-4--4-4--4--4--|
--5--5--5--5-5--5-5--5--5--|--4--4--4--4-4--4-4--4--4--|
---------------------------|--2--2--2--2-2--2-2--2--2--|



--0--0--0--0-0--0-0--0--0--|--0--0--0--0-0--0-0--0--0--|
--3--3--3--3-3--3-3--3--3--|--7--7--7--7-7--7-7--7--7--|
--2--2--2--2-2--2-2--2--2--|--7--7--7--7-7--7-7--7--7--|
--0--0--0--0-0--0-0--0--0--|--7--7--7--7-7--7-7--7--7--|
--2--2--2--2-2--2-2--2--2--|---------------------------|
---------------------------|--7--7--7--7-7--7-7--7--7--|



---------------------------|---------------------------|
--3--3--3--3-3--3-3--3--3--|--2--2--2--2-2--2-2--2--2--|
--4--4--4--4-4--4-4--4--4--|--2--2--2--2-2--2-2--2--2--|
--5--5--5--5-5--5-5--5--5--|--4--4--4--4-4--4-4--4--4--|
--5--5--5--5-5--5-5--5--5--|--4--4--4--4-4--4-4--4--4--|
---------------------------|--2--2--2--2-2--2-2--2--2--|



--0--0--0--0-0--0-0--0--0--|--0--0--0--0-0--0-0--0--0--|
--3--3--3--3-3--3-3--3--3--|--7--7--7--7-7--7-7--7--7--|
--2--2--2--2-2--2-2--2--2--|--7--7--7--7-7--7-7--7--7--|
--0--0--0--0-0--0-0--0--0--|--7--7--7--7-7--7-7--7--7--|
--2--2--2--2-2--2-2--2--2--|---------------------------|
---------------------------|--7--7--7--7-7--7-7--7--7--|



---------------------------|---------------------------|
--3--3--3--3-3--3-3--3--3--|--2--2--2--2-2--2-2--2--2--|
--4--4--4--4-4--4-4--4--4--|--2--2--2--2-2--2-2--2--2--|
--5--5--5--5-5--5-5--5--5--|--4--4--4--4-4--4-4--4--4--|
--5--5--5--5-5--5-5--5--5--|--4--4--4--4-4--4-4--4--4--|
---------------------------|--2--2--2--2-2--2-2--2--2--|



--0--0--0--0-0--0-0--0--0--|--0--0--0--0-0--0-0--0--0--|
--3--3--3--3-3--3-3--3--3--|--7--7--7--7-7--7-7--7--7--|
--2--2--2--2-2--2-2--2--2--|--7--7--7--7-7--7-7--7--7--|
--0--0--0--0-0--0-0--0--0--|--7--7--7--7-7--7-7--7--7--|
--2--2--2--2-2--2-2--2--2--|---------------------------|
---------------------------|--7--7--7--7-7--7-7--7--7--|



---------------------------|---------------------------|
--3--3--3--3-3--3-3--3--3--|--2--2--2--2-2--2-2--2--2--|
--4--4--4--4-4--4-4--4--4--|--2--2--2--2-2--2-2--2--2--|
--5--5--5--5-5--5-5--5--5--|--4--4--4--4-4--4-4--4--4--|
--5--5--5--5-5--5-5--5--5--|--4--4--4--4-4--4-4--4--4--|
---------------------------|--2--2--2--2-2--2-2--2--2--|



--0--0--0--0-0--0-0--0--0--|--x-2-2--2--2-2-2--2-2-2-2-2-2-|
--3--3--3--3-3--3-3--3--3--|--x-0-0--0--0-0-0--0-0-0-0-0-0-|
--2--2--2--2-2--2-2--2--2--|--x-0-0--0--0-0-0--0-0-0-0-0-0-|
--0--0--0--0-0--0-0--0--0--|--x-2-2--2--2-2-2--2-2-2-2-2-2-|
--2--2--2--2-2--2-2--2--2--|-------------------------------|
---------------------------|-------------------------------|



----------------------------|----------------------------|
--5-5-5--5--5-5--5-5--5--5--|--5-5-5--5--5-5--5-5--5--5--|
--5-5-5--5--5-5--5-5--5--5--|--7-7-7--7--7-7--7-7--7--7--|
--2-2-2--2--2-2--2-2--2--2--|--0-0-0--0--0-0--0-0--0--0--|
--3-3-3--3--3-3--3-3--3--3--|--x-x-x--x--x-x--x-x--x--x--|
----------------------------|--7-7-7--7--7-7--7-7--7--7--|



--0-0-0--0--0-0--0-0--0--0--|--0-0-0--0--0-0--0-0--0--0--|
--0-0-0--0--0-0--0-0--0--0--|--3-3-3--3--3-3--3-3--3--3--|
--0-0-0--0--0-0--0-0--0--0--|--2-2-2--2--2-2--2-2--2--2--|
--2-2-2--2--2-2--2-2--2--2--|--0-0-0--0--0-0--0-0--0--0--|
----------------------------|----------------------------|
----------------------------|----------------------------|



----------------------------|----------------------------|
--5-5-5--5--5-5--5-5--5--5--|--5-5-5--5--5-5--5-5--5--5--|
--5-5-5--5--5-5--5-5--5--5--|--7-7-7--7--7-7--7-7--7--7--|
--2-2-2--2--2-2--2-2--2--2--|--0-0-0--0--0-0--0-0--0--0--|
--3-3-3--3--3-3--3-3--3--3--|--x-x-x--x--x-x--x-x--x--x--|
----------------------------|--7-7-7--7--7-7--7-7--7--7--|



--0-0-0--0--0-0--0-0--0--0--|--0-0-0--0--0-0--0-0--0--0--|
--0-0-0--0--0-0--0-0--0--0--|--3-3-3--3--3-3--3-3--3--3--|
--0-0-0--0--0-0--0-0--0--0--|--2-2-2--2--2-2--2-2--2--2--|
--2-2-2--2--2-2--2-2--2--2--|--0-0-0--0--0-0--0-0--0--0--|
----------------------------|----------------------------|
----------------------------|----------------------------|



----------------------------|----------------------------|
--5-5-5--5--5-5--5-5--5--5--|--5-5-5--5--5-5--5-5--5--5--|
--5-5-5--5--5-5--5-5--5--5--|--7-7-7--7--7-7--7-7--7--7--|
--2-2-2--2--2-2--2-2--2--2--|--0-0-0--0--0-0--0-0--0--0--|
--3-3-3--3--3-3--3-3--3--3--|--x-x-x--x--x-x--x-x--x--x--|
----------------------------|--7-7-7--7--7-7--7-7--7--7--|



--0-0-0--0--0-0--0-0--0--0--|--0-0-0--0--0-0--0-0--0--0--|
--0-0-0--0--0-0--0-0--0--0--|--3-3-3--3--3-3--3-3--3--3--|
--0-0-0--0--0-0--0-0--0--0--|--2-2-2--2--2-2--2-2--2--2--|
--2-2-2--2--2-2--2-2--2--2--|--0-0-0--0--0-0--0-0--0--0--|
----------------------------|----------------------------|
----------------------------|----------------------------|



----------------------------|----------------------------|
--5-5-5--5--5-5--5-5--5--5--|--5-5-5--5--5-5--5-5--5--5--|
--5-5-5--5--5-5--5-5--5--5--|--7-7-7--7--7-7--7-7--7--7--|
--2-2-2--2--2-2--2-2--2--2--|--0-0-0--0--0-0--0-0--0--0--|
--3-3-3--3--3-3--3-3--3--3--|--x-x-x--x--x-x--x-x--x--x--|
----------------------------|--7-7-7--7--7-7--7-7--7--7--|



--0-0-0--0--0-0--0-0--0--0--|--0-0-0--0--0-0--0-0--0--0--|
--0-0-0--0--0-0--0-0--0--0--|--3-3-3--3--3-3--3-3--3--3--|
--0-0-0--0--0-0--0-0--0--0--|--2-2-2--2--2-2--2-2--2--2--|
--2-2-2--2--2-2--2-2--2--2--|--0-0-0--0--0-0--0-0--0--0--|
----------------------------|----------------------------|
----------------------------|----------------------------|



--0------3---------2--|--------------------|------------------------|
--0-------------------|--------------------|--3---------------3-----|
--0-----------4-------|----2----2----------|-----4----2----4-----4--|
--2-------------------|--------------------|------------------------|
--3-------------------|--------------------|------------------------|
----------------------|--------------------|------------------------|



------------------|--0-------3---------2--|--------------------|
------------------|-----0---------0-------|--------------------|
------------------|-----------------------|----2----2----------|
------------------|-----------------------|--------------------|
------------------|-----------------------|--------------------|
------------------|-----------------------|--------------------|



------------------------|------------------|--0-------3---------2--|
--3---------------3-----|------------------|-----0---------0-------|
-----4----2----4-----4--|------------------|-----------------------|
------------------------|------------------|-----------------------|
------------------------|------------------|-----------------------|
------------------------|------------------|-----------------------|



--------------------|------------------------|------------------|
--------------------|--3---------------3-----|------------------|
----2----2----------|-----4----2----4-----4--|------------------|
--------------------|------------------------|------------------|
--------------------|------------------------|------------------|
--------------------|------------------------|------------------|



--0-------3---------2--|--------------------|------------------------|
-----0---------0-------|--------------------|--3---------------3-----|
-----------------------|----2----2----------|-----4----2----4-----4--|
-----------------------|--------------------|------------------------|
-----------------------|--------------------|------------------------|
-----------------------|--------------------|------------------------|



-------------------------|----------------------------|
----0--0--0--0--0--0--0--|--5-5-5--5--5-5--5-5--5--5--|
----0--0--0--0--0--0--0--|--5-5-5--5--5-5--5-5--5--5--|
----2--2--2--2--2--2--2--|--2-2-2--2--2-2--2-2--2--2--|
----2--2--2--2--2--2--2--|--3-3-3--3--3-3--3-3--3--3--|
----0--0--0--0--0--0--0--|----------------------------|



----------------------------|--0-0-0--0--0-0--0-0--0--0--|
--5-5-5--5--5-5--5-5--5--5--|--0-0-0--0--0-0--0-0--0--0--|
--7-7-7--7--7-7--7-7--7--7--|--0-0-0--0--0-0--0-0--0--0--|
--0-0-0--0--0-0--0-0--0--0--|--2-2-2--2--2-2--2-2--2--2--|
--x-x-x--x--x-x--x-x--x--x--|----------------------------|
--7-7-7--7--7-7--7-7--7--7--|----------------------------|



--0-0-0--0--0-0--0-0--0--0--|----------------------------|
--3-3-3--3--3-3--3-3--3--3--|--5-5-5--5--5-5--5-5--5--5--|
--2-2-2--2--2-2--2-2--2--2--|--5-5-5--5--5-5--5-5--5--5--|
--0-0-0--0--0-0--0-0--0--0--|--2-2-2--2--2-2--2-2--2--2--|
----------------------------|--3-3-3--3--3-3--3-3--3--3--|
----------------------------|----------------------------|



----------------------------|--0-0-0--0--0-0--0-0--0--0--|
--5-5-5--5--5-5--5-5--5--5--|--0-0-0--0--0-0--0-0--0--0--|
--7-7-7--7--7-7--7-7--7--7--|--0-0-0--0--0-0--0-0--0--0--|
--0-0-0--0--0-0--0-0--0--0--|--2-2-2--2--2-2--2-2--2--2--|
--x-x-x--x--x-x--x-x--x--x--|----------------------------|
--7-7-7--7--7-7--7-7--7--7--|----------------------------|



--0-0-0--0--0-0--0-0--0--0--|----------------------------|
--3-3-3--3--3-3--3-3--3--3--|--5-5-5--5--5-5--5-5--5--5--|
--2-2-2--2--2-2--2-2--2--2--|--5-5-5--5--5-5--5-5--5--5--|
--0-0-0--0--0-0--0-0--0--0--|--2-2-2--2--2-2--2-2--2--2--|
----------------------------|--3-3-3--3--3-3--3-3--3--3--|
----------------------------|----------------------------|



----------------------------|--0-0-0--0--0-0--0-0--0--0--|
--5-5-5--5--5-5--5-5--5--5--|--0-0-0--0--0-0--0-0--0--0--|
--7-7-7--7--7-7--7-7--7--7--|--0-0-0--0--0-0--0-0--0--0--|
--0-0-0--0--0-0--0-0--0--0--|--2-2-2--2--2-2--2-2--2--2--|
--x-x-x--x--x-x--x-x--x--x--|----------------------------|
--7-7-7--7--7-7--7-7--7--7--|----------------------------|



--0-0-0--0--0-0--0-0--0--0--|----------------------------|
--3-3-3--3--3-3--3-3--3--3--|--5-5-5--5--5-5--5-5--5--5--|
--2-2-2--2--2-2--2-2--2--2--|--5-5-5--5--5-5--5-5--5--5--|
--0-0-0--0--0-0--0-0--0--0--|--2-2-2--2--2-2--2-2--2--2--|
----------------------------|--3-3-3--3--3-3--3-3--3--3--|
----------------------------|----------------------------|



----------------------------|--0-0-0--0--0-0--0-0--0--0--|
--5-5-5--5--5-5--5-5--5--5--|--0-0-0--0--0-0--0-0--0--0--|
--7-7-7--7--7-7--7-7--7--7--|--0-0-0--0--0-0--0-0--0--0--|
--0-0-0--0--0-0--0-0--0--0--|--2-2-2--2--2-2--2-2--2--2--|
--x-x-x--x--x-x--x-x--x--x--|----------------------------|
--7-7-7--7--7-7--7-7--7--7--|----------------------------|



----------------------------|----------------------------|
--5-5-5--5--5-5--5-5--5--5--|--5-5-5--5--5-5--5-5--5--5--|
--5-5-5--5--5-5--5-5--5--5--|--7-7-7--7--7-7--7-7--7--7--|
--2-2-2--2--2-2--2-2--2--2--|--0-0-0--0--0-0--0-0--0--0--|
--3-3-3--3--3-3--3-3--3--3--|--x-x-x--x--x-x--x-x--x--x--|
----------------------------|--7-7-7--7--7-7--7-7--7--7--|



--0-0-0--0--0-0--0-0--0--0--|--0-0-0--0--0-0--0-0--0--0--|
--0-0-0--0--0-0--0-0--0--0--|--3-3-3--3--3-3--3-3--3--3--|
--0-0-0--0--0-0--0-0--0--0--|--2-2-2--2--2-2--2-2--2--2--|
--2-2-2--2--2-2--2-2--2--2--|--0-0-0--0--0-0--0-0--0--0--|
----------------------------|----------------------------|
----------------------------|----------------------------|



----------------------------|----------------------------|
--5-5-5--5--5-5--5-5--5--5--|--5-5-5--5--5-5--5-5--5--5--|
--5-5-5--5--5-5--5-5--5--5--|--7-7-7--7--7-7--7-7--7--7--|
--2-2-2--2--2-2--2-2--2--2--|--0-0-0--0--0-0--0-0--0--0--|
--3-3-3--3--3-3--3-3--3--3--|--x-x-x--x--x-x--x-x--x--x--|
----------------------------|--7-7-7--7--7-7--7-7--7--7--|



--0-0-0--0--0-0--0-0--0--0--|--0-0-0--0--0-0--0-0--0--0--|
--0-0-0--0--0-0--0-0--0--0--|--3-3-3--3--3-3--3-3--3--3--|
--0-0-0--0--0-0--0-0--0--0--|--2-2-2--2--2-2--2-2--2--2--|
--2-2-2--2--2-2--2-2--2--2--|--0-0-0--0--0-0--0-0--0--0--|
----------------------------|----------------------------|
----------------------------|----------------------------|



----------------------------|----------------------------|
--5-5-5--5--5-5--5-5--5--5--|--5-5-5--5--5-5--5-5--5--5--|
--5-5-5--5--5-5--5-5--5--5--|--7-7-7--7--7-7--7-7--7--7--|
--2-2-2--2--2-2--2-2--2--2--|--0-0-0--0--0-0--0-0--0--0--|
--3-3-3--3--3-3--3-3--3--3--|--x-x-x--x--x-x--x-x--x--x--|
----------------------------|--7-7-7--7--7-7--7-7--7--7--|



--0-0-0--0--0-0--0-0--0--0--|--0-0-0--0--0-0--0-0--0--0--|
--0-0-0--0--0-0--0-0--0--0--|--3-3-3--3--3-3--3-3--3--3--|
--0-0-0--0--0-0--0-0--0--0--|--2-2-2--2--2-2--2-2--2--2--|
--2-2-2--2--2-2--2-2--2--2--|--0-0-0--0--0-0--0-0--0--0--|
----------------------------|----------------------------|
----------------------------|----------------------------|



----------------------------|----------------------------|
--5-5-5--5--5-5--5-5--5--5--|--5-5-5--5--5-5--5-5--5--5--|
--5-5-5--5--5-5--5-5--5--5--|--7-7-7--7--7-7--7-7--7--7--|
--2-2-2--2--2-2--2-2--2--2--|--0-0-0--0--0-0--0-0--0--0--|
--3-3-3--3--3-3--3-3--3--3--|--x-x-x--x--x-x--x-x--x--x--|
----------------------------|--7-7-7--7--7-7--7-7--7--7--|



--0-0-0--0--0-0--0-0--0--0--|---------------------------|
--0-0-0--0--0-0--0-0--0--0--|--3--3--3--3-3--3-3--3--3--|
--0-0-0--0--0-0--0-0--0--0--|--4--4--4--4-4--4-4--4--4--|
--2-2-2--2--2-2--2-2--2--2--|--5--5--5--5-5--5-5--5--5--|
----------------------------|--5--5--5--5-5--5-5--5--5--|
----------------------------|---------------------------|



---------------------------|--0--0--0--0-0--0-0--0--0--|
--2--2--2--2-2--2-2--2--2--|--3--3--3--3-3--3-3--3--3--|
--2--2--2--2-2--2-2--2--2--|--2--2--2--2-2--2-2--2--2--|
--4--4--4--4-4--4-4--4--4--|--0--0--0--0-0--0-0--0--0--|
--4--4--4--4-4--4-4--4--4--|--2--2--2--2-2--2-2--2--2--|
--2--2--2--2-2--2-2--2--2--|---------------------------|



--0--0--0--0-0--0-0--0--0--|---------------------------|
--7--7--7--7-7--7-7--7--7--|--3--3--3--3-3--3-3--3--3--|
--7--7--7--7-7--7-7--7--7--|--4--4--4--4-4--4-4--4--4--|
--7--7--7--7-7--7-7--7--7--|--5--5--5--5-5--5-5--5--5--|
---------------------------|--5--5--5--5-5--5-5--5--5--|
--7--7--7--7-7--7-7--7--7--|---------------------------|



---------------------------|--0--0--0--0-0--0-0--0--0--|
--2--2--2--2-2--2-2--2--2--|--3--3--3--3-3--3-3--3--3--|
--2--2--2--2-2--2-2--2--2--|--2--2--2--2-2--2-2--2--2--|
--4--4--4--4-4--4-4--4--4--|--0--0--0--0-0--0-0--0--0--|
--4--4--4--4-4--4-4--4--4--|--2--2--2--2-2--2-2--2--2--|
--2--2--2--2-2--2-2--2--2--|---------------------------|



--0--0--0--0-0--0-0--0--0--|---------------------------|
--7--7--7--7-7--7-7--7--7--|--3--3--3--3-3--3-3--3--3--|
--7--7--7--7-7--7-7--7--7--|--4--4--4--4-4--4-4--4--4--|
--7--7--7--7-7--7-7--7--7--|--5--5--5--5-5--5-5--5--5--|
---------------------------|--5--5--5--5-5--5-5--5--5--|
--7--7--7--7-7--7-7--7--7--|---------------------------|



---------------------------|--0--0--0--0-0--0-0--0--0--|
--2--2--2--2-2--2-2--2--2--|--3--3--3--3-3--3-3--3--3--|
--2--2--2--2-2--2-2--2--2--|--2--2--2--2-2--2-2--2--2--|
--4--4--4--4-4--4-4--4--4--|--0--0--0--0-0--0-0--0--0--|
--4--4--4--4-4--4-4--4--4--|--2--2--2--2-2--2-2--2--2--|
--2--2--2--2-2--2-2--2--2--|---------------------------|



--0--0--0--0-0--0-0--0--0--|---------------------------|
--7--7--7--7-7--7-7--7--7--|--3--3--3--3-3--3-3--3--3--|
--7--7--7--7-7--7-7--7--7--|--4--4--4--4-4--4-4--4--4--|
--7--7--7--7-7--7-7--7--7--|--5--5--5--5-5--5-5--5--5--|
---------------------------|--5--5--5--5-5--5-5--5--5--|
--7--7--7--7-7--7-7--7--7--|---------------------------|



---------------------------|--0--0--0--0-0--0-0--0--0--|
--2--2--2--2-2--2-2--2--2--|--3--3--3--3-3--3-3--3--3--|
--2--2--2--2-2--2-2--2--2--|--2--2--2--2-2--2-2--2--2--|
--4--4--4--4-4--4-4--4--4--|--0--0--0--0-0--0-0--0--0--|
--4--4--4--4-4--4-4--4--4--|--2--2--2--2-2--2-2--2--2--|
--2--2--2--2-2--2-2--2--2--|---------------------------|



--2-2-2--2--2-2--2-2-2-2-2-2-2-|----------------- -x-------|
--0-0-0--0--0-0--0-0-0-0-0-0-0-|------------------ x--3----|
--0-0-0--0--0-0--0-0-0-0-0-0-0-|--x-2--x-4--x-6---x--2----|
--2-2-2--2--2-2--2-2-2-2-2-2-2-|--x-4--x-5--x-7---x--0----|
------------------------------- |--x-4--x-5--x-7---x--2----|
------------------------------- |--x-2--x-3--x-5---x-------|



--------------------------|----------------------------|
-------5--5-5--5-5--5--5--|--5-5-5--5--5-5--5-5--5--5--|
--x----5--5-5--5-5--5--5--|--7-7-7--7--7-7--7-7--7--7--|
--x----2--2-2--2-2--2--2--|--0-0-0--0--0-0--0-0--0--0--|
--x----3--3-3--3-3--3--3--|--x-x-x--x--x-x--x-x--x--x--|
--x-----------------------|--7-7-7--7--7-7--7-7--7--7--|



--0-0-0--0--0-0--0-0--0--0--|--0-0-0--0--0-0--0-0--0--0--|
--0-0-0--0--0-0--0-0--0--0--|--3-3-3--3--3-3--3-3--3--3--|
--0-0-0--0--0-0--0-0--0--0--|--2-2-2--2--2-2--2-2--2--2--|
--2-2-2--2--2-2--2-2--2--2--|--0-0-0--0--0-0--0-0--0--0--|
----------------------------|----------------------------|
----------------------------|----------------------------|



----------------------------|----------------------------|
--5-5-5--5--5-5--5-5--5--5--|--5-5-5--5--5-5--5-5--5--5--|
--5-5-5--5--5-5--5-5--5--5--|--7-7-7--7--7-7--7-7--7--7--|
--2-2-2--2--2-2--2-2--2--2--|--0-0-0--0--0-0--0-0--0--0--|
--3-3-3--3--3-3--3-3--3--3--|--x-x-x--x--x-x--x-x--x--x--|
----------------------------|--7-7-7--7--7-7--7-7--7--7--|



--0-0-0--0--0-0--0-0--0--0--|--0-0-0--0--0-0--0-0--0--0--|
--0-0-0--0--0-0--0-0--0--0--|--3-3-3--3--3-3--3-3--3--3--|
--0-0-0--0--0-0--0-0--0--0--|--2-2-2--2--2-2--2-2--2--2--|
--2-2-2--2--2-2--2-2--2--2--|--0-0-0--0--0-0--0-0--0--0--|
----------------------------|----------------------------|
----------------------------|----------------------------|



----------------------------|----------------------------|
--5-5-5--5--5-5--5-5--5--5--|--5-5-5--5--5-5--5-5--5--5--|
--5-5-5--5--5-5--5-5--5--5--|--7-7-7--7--7-7--7-7--7--7--|
--2-2-2--2--2-2--2-2--2--2--|--0-0-0--0--0-0--0-0--0--0--|
--3-3-3--3--3-3--3-3--3--3--|--x-x-x--x--x-x--x-x--x--x--|
----------------------------|--7-7-7--7--7-7--7-7--7--7--|



--0-0-0--0--0-0--0-0--0--0--|--0-0-0--0--0-0--0-0--0--0--|
--0-0-0--0--0-0--0-0--0--0--|--3-3-3--3--3-3--3-3--3--3--|
--0-0-0--0--0-0--0-0--0--0--|--2-2-2--2--2-2--2-2--2--2--|
--2-2-2--2--2-2--2-2--2--2--|--0-0-0--0--0-0--0-0--0--0--|
----------------------------|----------------------------|
----------------------------|----------------------------|



----------------------------|----------------------------|
--5-5-5--5--5-5--5-5--5--5--|--5-5-5--5--5-5--5-5--5--5--|
--5-5-5--5--5-5--5-5--5--5--|--7-7-7--7--7-7--7-7--7--7--|
--2-2-2--2--2-2--2-2--2--2--|--0-0-0--0--0-0--0-0--0--0--|
--3-3-3--3--3-3--3-3--3--3--|--x-x-x--x--x-x--x-x--x--x--|
----------------------------|--7-7-7--7--7-7--7-7--7--7--|



--0-0-0--0--0-0--0-0--0--0--|--0-0-0--0--0-0--0-0--0--0--|
--0-0-0--0--0-0--0-0--0--0--|--3-3-3--3--3-3--3-3--3--3--|
--0-0-0--0--0-0--0-0--0--0--|--2-2-2--2--2-2--2-2--2--2--|
--2-2-2--2--2-2--2-2--2--2--|--0-0-0--0--0-0--0-0--0--0--|
----------------------------|----------------------------|
----------------------------|----------------------------|



----------------------------|----------------------------|
--5-5-5--5--5-5--5-5--5--5--|--5-5-5--5--5-5--5-5--5--5--|
--5-5-5--5--5-5--5-5--5--5--|--7-7-7--7--7-7--7-7--7--7--|
--2-2-2--2--2-2--2-2--2--2--|--0-0-0--0--0-0--0-0--0--0--|
--3-3-3--3--3-3--3-3--3--3--|--x-x-x--x--x-x--x-x--x--x--|
----------------------------|--7-7-7--7--7-7--7-7--7--7--|



--0-0-0--0--0-0--0-0--0--0--|--0-0-0--0--0-0--0-0--0--0--|
--0-0-0--0--0-0--0-0--0--0--|--3-3-3--3--3-3--3-3--3--3--|
--0-0-0--0--0-0--0-0--0--0--|--2-2-2--2--2-2--2-2--2--2--|
--2-2-2--2--2-2--2-2--2--2--|--0-0-0--0--0-0--0-0--0--0--|
----------------------------|----------------------------|
----------------------------|----------------------------|



----------------------------|----------------------------|
--5-5-5--5--5-5--5-5--5--5--|--5-5-5--5--5-5--5-5--5--5--|
--5-5-5--5--5-5--5-5--5--5--|--7-7-7--7--7-7--7-7--7--7--|
--2-2-2--2--2-2--2-2--2--2--|--0-0-0--0--0-0--0-0--0--0--|
--3-3-3--3--3-3--3-3--3--3--|--x-x-x--x--x-x--x-x--x--x--|
----------------------------|--7-7-7--7--7-7--7-7--7--7--|



--0-0-0--0--0-0--0-0--0--0--|--0-0-0--0--0-0--0-0--0--0--|
--0-0-0--0--0-0--0-0--0--0--|--3-3-3--3--3-3--3-3--3--3--|
--0-0-0--0--0-0--0-0--0--0--|--2-2-2--2--2-2--2-2--2--2--|
--2-2-2--2--2-2--2-2--2--2--|--0-0-0--0--0-0--0-0--0--0--|
----------------------------|----------------------------|
----------------------------|----------------------------|



----------------------------|----------------------------|
--5-5-5--5--5-5--5-5--5--5--|--5-5-5--5--5-5--5-5--5--5--|
--5-5-5--5--5-5--5-5--5--5--|--7-7-7--7--7-7--7-7--7--7--|
--2-2-2--2--2-2--2-2--2--2--|--0-0-0--0--0-0--0-0--0--0--|
--3-3-3--3--3-3--3-3--3--3--|--x-x-x--x--x-x--x-x--x--x--|
----------------------------|--7-7-7--7--7-7--7-7--7--7--|



--0-0-0--0--0-0--0-0--0--0--|--0-0-0--0--0-0--0-0--0--0--|
--0-0-0--0--0-0--0-0--0--0--|--3-3-3--3--3-3--3-3--3--3--|
--0-0-0--0--0-0--0-0--0--0--|--2-2-2--2--2-2--2-2--2--2--|
--2-2-2--2--2-2--2-2--2--2--|--0-0-0--0--0-0--0-0--0--0--|
----------------------------|----------------------------|
----------------------------|----------------------------|



----------------------------|----------------------------|
--5-5-5--5--5-5--5-5--5--5--|--5-5-5--5--5-5--5-5--5--5--|
--5-5-5--5--5-5--5-5--5--5--|--7-7-7--7--7-7--7-7--7--7--|
--2-2-2--2--2-2--2-2--2--2--|--0-0-0--0--0-0--0-0--0--0--|
--3-3-3--3--3-3--3-3--3--3--|--x-x-x--x--x-x--x-x--x--x--|
----------------------------|--7-7-7--7--7-7--7-7--7--7--|



--0-0-0--0--0-0--0-0--0--0--|--0-0-0--0--0-0--0-0--0--0--|
--0-0-0--0--0-0--0-0--0--0--|--3-3-3--3--3-3--3-3--3--3--|
--0-0-0--0--0-0--0-0--0--0--|--2-2-2--2--2-2--2-2--2--2--|
--2-2-2--2--2-2--2-2--2--2--|--0-0-0--0--0-0--0-0--0--0--|
----------------------------|----------------------------|
----------------------------|----------------------------|



-----2--------3-----2-----|-----2--------3-----2-----|
--------3--------3-----3--|--------3--------3-----3--|
--0--------0--------------|--4--------4--------------|
--------------------------|--------------------------|
--------------------------|--------------------------|
--------------------------|--------------------------|



-----2--------3-----2-----|-----2--------3-----2-----|
--------3--------3-----3--|--------3--------3-----3--|
--0--------0--------------|--4--------4--------------|
--------------------------|--------------------------|
--------------------------|--------------------------|
--------------------------|--------------------------|



-----2--------3-----2-----|-----2--------3-----2-----|
--------3--------3-----3--|--------3--------3-----3--|
--0--------0--------------|--4--------4--------------|
--------------------------|--------------------------|
--------------------------|--------------------------|
--------------------------|--------------------------|



-----2--------3-----2-----|-----2--------3-----2-----|
--------3--------3-----3--|--------3--------3-----3--|
--0--------0--------------|--4--------4--------------|
--------------------------|--------------------------|
--------------------------|--------------------------|
--------------------------|--------------------------|



-----2--------3-----2-----|-----2--------3-----2-----|
--------3--------3-----3--|--------3--------3-----3--|
--0--------0--------------|--4--------4--------------|
--------------------------|--------------------------|
--------------------------|--------------------------|
--------------------------|--------------------------|



-----2--------3-----2-----|-----2--------3-----2-----|
--------3--------3-----3--|--------3--------3-----3--|
--0--------0--------------|--4--------4--------------|
--------------------------|--------------------------|
--------------------------|--------------------------|
--------------------------|--------------------------|



-----2--------3-----2-----|-----2--------3-----2-----|
--------3--------3-----3--|--------3--------3-----3--|
--0--------0--------------|--4--------4--------------|
--------------------------|--------------------------|
--------------------------|--------------------------|
--------------------------|--------------------------|



-----2--------3-----2-----|-----2--------3-----2-----|-----0----------------|
--------3--------3-----3--|--------3--------3-----3--|--------3-------------|
--0--------0--------------|--4--------4--------------|--0--------0----------|
--------------------------|--------------------------|--2-------------------|
--------------------------|--------------------------|--3-------------------|
--------------------------|--------------------------|----------------------|



-----0----------------|------------------|----------------------3-3-|
--3-----3-------------|------------------|----------------------3-3-|
--2-------------------|------------------|--4-------------------4-4-|
--4--------4----------|------------------|--5----------5--5--5--5-5-|
----------------------|------------------|--5----5--5--5--5--5--5-5-|
----------------------|------------------|--3----3--3--3--3--3--3-3-|



---3-3--3-3--3-3-3-3-3-3-3-3-3-|----------------------------|
---3-3--3-3--3-3-3-3-3-3-3-3-3-|--5-5-5--5--5-5--5-5--5--5--|
---4-4--4-4--4-4-4-4-4-4-4-4-4-|--5-5-5--5--5-5--5-5--5--5--|
---5-5--5-5--5-5-5-5-5-5-5-5-5-|--2-2-2--2--2-2--2-2--2--2--|
---5-5--5-5--5-5-5-5-5-5-5-5-5-|--3-3-3--3--3-3--3-3--3--3--|
---3-3--3-3--3-3-3-3-3-3-3-3-3-|----------------------------|



----------------------------|--0-0-0--0--0-0--0-0--0--0--|
--5-5-5--5--5-5--5-5--5--5--|--0-0-0--0--0-0--0-0--0--0--|
--7-7-7--7--7-7--7-7--7--7--|--0-0-0--0--0-0--0-0--0--0--|
--0-0-0--0--0-0--0-0--0--0--|--2-2-2--2--2-2--2-2--2--2--|
--x-x-x--x--x-x--x-x--x--x--|----------------------------|
--7-7-7--7--7-7--7-7--7--7--|----------------------------|



--0-0-0--0--0-0--0-0--0--0--|----------------------------|
--3-3-3--3--3-3--3-3--3--3--|--5-5-5--5--5-5--5-5--5--5--|
--2-2-2--2--2-2--2-2--2--2--|--5-5-5--5--5-5--5-5--5--5--|
--0-0-0--0--0-0--0-0--0--0--|--2-2-2--2--2-2--2-2--2--2--|
----------------------------|--3-3-3--3--3-3--3-3--3--3--|
----------------------------|----------------------------|



----------------------------|--0-0-0--0--0-0--0-0--0--0--|
--5-5-5--5--5-5--5-5--5--5--|--0-0-0--0--0-0--0-0--0--0--|
--7-7-7--7--7-7--7-7--7--7--|--0-0-0--0--0-0--0-0--0--0--|
--0-0-0--0--0-0--0-0--0--0--|--2-2-2--2--2-2--2-2--2--2--|
--x-x-x--x--x-x--x-x--x--x--|----------------------------|
--7-7-7--7--7-7--7-7--7--7--|----------------------------|



--0-0-0--0--0-0--0-0--0--0--|----------------------------|
--3-3-3--3--3-3--3-3--3--3--|--5-5-5--5--5-5--5-5--5--5--|
--2-2-2--2--2-2--2-2--2--2--|--5-5-5--5--5-5--5-5--5--5--|
--0-0-0--0--0-0--0-0--0--0--|--2-2-2--2--2-2--2-2--2--2--|
----------------------------|--3-3-3--3--3-3--3-3--3--3--|
----------------------------|----------------------------|



----------------------------|--0-0-0--0--0-0--0-0--0--0--|
--5-5-5--5--5-5--5-5--5--5--|--0-0-0--0--0-0--0-0--0--0--|
--7-7-7--7--7-7--7-7--7--7--|--0-0-0--0--0-0--0-0--0--0--|
--0-0-0--0--0-0--0-0--0--0--|--2-2-2--2--2-2--2-2--2--2--|
--x-x-x--x--x-x--x-x--x--x--|----------------------------|
--7-7-7--7--7-7--7-7--7--7--|----------------------------|



--0-0-0--0--0-0--0-0--0--0--|----------------------------|
--3-3-3--3--3-3--3-3--3--3--|--5-5-5--5--5-5--5-5--5--5--|
--2-2-2--2--2-2--2-2--2--2--|--5-5-5--5--5-5--5-5--5--5--|
--0-0-0--0--0-0--0-0--0--0--|--2-2-2--2--2-2--2-2--2--2--|
----------------------------|--3-3-3--3--3-3--3-3--3--3--|
----------------------------|----------------------------|



----------------------------|--0-0-0--0--0-0--0-0--0--0--|
--5-5-5--5--5-5--5-5--5--5--|--0-0-0--0--0-0--0-0--0--0--|
--7-7-7--7--7-7--7-7--7--7--|--0-0-0--0--0-0--0-0--0--0--|
--0-0-0--0--0-0--0-0--0--0--|--2-2-2--2--2-2--2-2--2--2--|
--x-x-x--x--x-x--x-x--x--x--|----------------------------|
--7-7-7--7--7-7--7-7--7--7--|----------------------------|



--0-0-0--0--0-0--0-0--0--0--|----||
--3-3-3--3--3-3--3-3--3--3--|----||
--2-2-2--2--2-2--2-2--2--2--|----||
--0-0-0--0--0-0--0-0--0--0--|----||
----------------------------|----||
----------------------------|----||
Atgal į viršų Go down
Peržiūrėti vartotojo aprašymą
Reika:3
~Wakashu~


Female
Pisces Buffalo
Age : 19
Miestas : vilnius
Pranešimų skaičius : 155
Reputacija : 0

.::+Trumpai apie save+::.
Pareigos: go creazy about Gazetto & Japan xD
Išskirtinis Bruožas: Kai sypsena :DDD
Super Galia: We Rock!!! xDD

RašytiTemos pavadinimas: Re: Reila tabs   Liepa 12th 2010, 08:05

Arigatou Gozaimasu 29 *bega atsinest gitaa*
Atgal į viršų Go down
Peržiūrėti vartotojo aprašymą
keiko6088
~Shateigashira-hosa~


Female
Libra Rat
Age : 20
Miestas : siauliai pietinizz
Pranešimų skaičius : 306
Reputacija : 1

.::+Trumpai apie save+::.
Pareigos: gimusi nekesti seimos T.T
Išskirtinis Bruožas: didelis brolio nuzidimo noras XD
Super Galia: per naktis klausytis gazett muzikos neuzmigus.

RašytiTemos pavadinimas: Re: Reila tabs   Liepa 13th 2010, 11:22

OMG XD thats why I like guitar pro more xD sunku susigaudyti tabose XD
Atgal į viršų Go down
Peržiūrėti vartotojo aprašymą
Reita-sama
~Shatei~


Male
Leo Rat
Age : 20
Miestas : Vilnius
Pranešimų skaičius : 64
Reputacija : -2

RašytiTemos pavadinimas: Re: Reila tabs   Liepa 16th 2010, 15:21

man tai labai lengva susigaut tuose tabuose xDD
Atgal į viršų Go down
Peržiūrėti vartotojo aprašymą
Reika:3
~Wakashu~


Female
Pisces Buffalo
Age : 19
Miestas : vilnius
Pranešimų skaičius : 155
Reputacija : 0

.::+Trumpai apie save+::.
Pareigos: go creazy about Gazetto & Japan xD
Išskirtinis Bruožas: Kai sypsena :DDD
Super Galia: We Rock!!! xDD

RašytiTemos pavadinimas: Re: Reila tabs   Liepa 17th 2010, 09:05

gal zinot is kur butu galima atsisiust guitar pro for free? 46 47 82
Atgal į viršų Go down
Peržiūrėti vartotojo aprašymą
Reita-sama
~Shatei~


Male
Leo Rat
Age : 20
Miestas : Vilnius
Pranešimų skaičius : 64
Reputacija : -2

RašytiTemos pavadinimas: Re: Reila tabs   Liepa 17th 2010, 12:01

as zinau xDD
Atgal į viršų Go down
Peržiūrėti vartotojo aprašymą
Reika:3
~Wakashu~


Female
Pisces Buffalo
Age : 19
Miestas : vilnius
Pranešimų skaičius : 155
Reputacija : 0

.::+Trumpai apie save+::.
Pareigos: go creazy about Gazetto & Japan xD
Išskirtinis Bruožas: Kai sypsena :DDD
Super Galia: We Rock!!! xDD

RašytiTemos pavadinimas: Re: Reila tabs   Liepa 17th 2010, 15:19

tell me 47 03 39
Atgal į viršų Go down
Peržiūrėti vartotojo aprašymą
Reita-sama
~Shatei~


Male
Leo Rat
Age : 20
Miestas : Vilnius
Pranešimų skaičius : 64
Reputacija : -2

RašytiTemos pavadinimas: Re: Reila tabs   Liepa 17th 2010, 19:26

duok skype atsiusiu xD
Atgal į viršų Go down
Peržiūrėti vartotojo aprašymą
Reika:3
~Wakashu~


Female
Pisces Buffalo
Age : 19
Miestas : vilnius
Pranešimų skaičius : 155
Reputacija : 0

.::+Trumpai apie save+::.
Pareigos: go creazy about Gazetto & Japan xD
Išskirtinis Bruožas: Kai sypsena :DDD
Super Galia: We Rock!!! xDD

RašytiTemos pavadinimas: Re: Reila tabs   Liepa 18th 2010, 08:28

imk XD skype:Reika*GazeRock*, etoo.. tik kad me bus nuo 07.19 iki 07.25 in LV taj zdz.. nebusiu prisijungus XD
Atgal į viršų Go down
Peržiūrėti vartotojo aprašymą
Reita-sama
~Shatei~


Male
Leo Rat
Age : 20
Miestas : Vilnius
Pranešimų skaičius : 64
Reputacija : -2

RašytiTemos pavadinimas: Re: Reila tabs   Liepa 18th 2010, 10:01

Pakvieciau xDD
Atgal į viršų Go down
Peržiūrėti vartotojo aprašymą
Sponsored content




RašytiTemos pavadinimas: Re: Reila tabs   Today at 00:51

Atgal į viršų Go down
 
Reila tabs
Rodyti ankstesnę temą Rodyti sekančią temą Atgal į viršų 
Puslapis 11

Permissions in this forum:Jūs negalite atsakinėti į pranešimus šiame forume
 :: the GazettE :: Akordai-
Pereiti į: